Приветствую Вас Гость/forum/16-0-0-37 ГлавнаяПроверка игры на Гитаре - Форум "Южной Стены"РегистрацияВход
[ Новые сообщения · Участники · Правила форума · Поиск · RSS ]
Страница 1 из 11
Архив - только для чтения
Модератор форума: Legion 
Форум "Южной Стены" » Таверна » Аргонианин с балалайкой » Проверка игры на Гитаре (" Угадай мелодию ")
Проверка игры на Гитаре
PhoenixДата: Понедельник, 24.09.2007, 17:21
Огонёк
Сообщений: 47
Статус: Offline
У меня появилась сумасшедшая ВЕЩЬ!!!
Один мой друг прислал мне одну( не буду говорить какую ) табулатуру и дописал " Поиграй ее на гитаре, и угадай, что ето за мелодия. Ответ пришлешь мне... "
Угадать я ее смог со второго раза... и поетому решил также проверять своих друзей ( которые шарят играть на гитаре, конечно ). Твоя очередь, Вован :
Что ето за песня? :

6/8 time
E-------0-----|-------0-----|-------0-----|-------0---7-|
B-----0---0---|-----0---0---|-----0---0---|-----0---0---|
G---0-------0-|- --0-------0-|---0-------0-|---0---------|
D-------------|-------------|-------------|-------------|
A-------------|-------------|--------- ----|-------------|
E-0-----------|-0-----------|-0-----------|-0-----------|
P (9/8 time) H P S P S
E-7-----------7^0---------|---------7---8---7^85---7-5^32-----|
B-----0-----------0-------|---------0---0-----------0-------5---|
G---- -----0-----------0---|-----0-------------------------------|
D-------------------------|-------------------------------------|
A---------- ---------------|-------------------------------------|
E-0-----------------------|-0-----------------------------------|
P
E------------- 2^0---------|-------------0---0---0---|
B-5-------5-------5-------|---------5-------5---5---|
G-----5---------------5---|-----5----------- 5---5---|
D-------------------------|-------------------------|
A-0-----------------------|-0---------------0---2---|
E------------------ -------|-------------------------|
P H P P H
E-0-----------3^0-----0---|-0-----------0^5^0--------|
B-5-------5-------5---5---|-7-------7---------7^0-0^5|
G-5-----5---5-------5-5-- -|-7-----7---7--------------|
D-------------------------|--------------------------|
A-3---3---------------3---|-5---5-------------------- |
E-------------------------|--------------------------|
<.NH.>
E-------12----|-------0-----|-------0-----|-------0-----|
B-----12--0--- |-----0---0---|-----0---0---|-----0---0---|
G---12------0-|---0-------0-|---0-------0-|---0-------0-|
D-------------|-------------|------- ------|-------------|
A-------------|-------------|-------------|-------------|
E-0-----------|-0-----------|-0-----------|-0-----------|

E -------------7-----------|-------------|-------------7-----------|
B-------------8-----------|-----7-----5-|-------------8-----------|
G-- ---------9-------------|-----7-----5-|-----------9-------------|
D---------9---------------|---7-----5---|---------9---------------|
A---- ---7-----------------|-5-----3-----|-------7-----------------|
E-0-----------------------|-------------|-0-----------------------|

E---- ---------|-------------7-----------|-----5-----------3-------|
B-----7-----5-|-------------8-----------|-------7-----------5-----|
G-----7 -----5-|---------9---------------|---------7-----------5---|
D---7-----5---|-----------9-------------|-----7-----------5-------|
A-5-----3 -----|-------7-----------------|-5-----------3-----------|
E-------------|-0-----------------------|-------------------------|

E-----3-- ---------2-------|-------0-----|-------0-----|
B-------3-----------4-----|-----0---0---|-----0---0---|
G---------4-----------2---|---0---- ---0-|---0-------0-|
D-----5-----------4-------|-------------|-------------|
A-------------2-----------|-------------|-------------|
E-3- ----------------------|-0-----------|-0-----------|

Дальше писать не буду...
Извиняюсь за качество, надеюсь ты поймешь...
А если не поймешь, то создай на Рабочем Столе текстовый документ, и скопируй все туда ( так сделал я )

Ответ напишешь в етой же теме... удачи...

Сообщение отредактировал Paladin - Понедельник, 24.09.2007, 22:54
PaladinДата: Понедельник, 24.09.2007, 18:51
Ведьмак
Сообщений: 372
Статус: Offline
Phoenix,

Посмотрю потом.

Сообщение отредактировал Paladin - Воскресенье, 07.10.2007, 00:23
PhoenixДата: Понедельник, 24.09.2007, 20:20
Огонёк
Сообщений: 47
Статус: Offline
Ты б мог присмотресться, и сразу угадать по первым же нотам... тем более, ты ее уже давненько слушаешь...

Сообщение отредактировал Paladin - Воскресенье, 07.10.2007, 00:23
PaladinДата: Понедельник, 24.09.2007, 23:33
Ведьмак
Сообщений: 372
Статус: Offline
Так-с... Такие табы мне неизвестны, но мне тут друг говорит что он с первого такта узнал что это Metallica - Nothing Else Matters... А я сомниваюсь что он ошибается. Сам металл играет)

Сообщение отредактировал Paladin - Понедельник, 24.09.2007, 23:35
PaladinДата: Понедельник, 24.09.2007, 23:43
Ведьмак
Сообщений: 372
Статус: Offline
Твоя очередь.

1)
e---------------------------
B--0-0-----0-----0-----1----
G------2-----2-----2-----2-- Repeat
D--------2-----2-----2-----2
A--0------------------------
E---------------------------
accoustic intro

2)
e------------------------
B------------------------
G--2-4-5--5-4-2--2-4-5--2
D------------------------
A---------------- --------
E------------------------
still clean intro

3)
e-----------------------------------------------------------
B--------------------------------------5-5-5-3--------------
G --2-4-5--5--5-5-4---4----2-4-2--2-4-5---------4-4-0-1/2-4-2
D--0---------------5---2--2------2--------------------------
A-----------------------------------------------------------
E-------- ---------------------------------------------------
chorus/intro

4a) Kirk
G----------------------12-12-11-11------
D--12-12-10-9-12p9-----0--0--0--0--10-10 twice
A--0--0--0--0-0--0-10--------------0--0-
E------------------0--------------------
pm......................................

4b) James
G-------------------2-2-2-2----
D--2-2-2-5----------0-0-0-0-2-2
A--0-0-0-3-2-2--------------0-0
E----------0-0--0-0------------
crunch verse

5)
G-------------------------------------------- twice --
D--10p0-----9p0-----7p0-----5p0-----5-------5 then -2
A-------0-0-----0-0-----0-0-----0-0-3-3h5p3-5 -2
E-------------------------------------------3 -0
pm.. ... ... ...
"falling" riff full

6) ^ ^
G-------------------2-2-2-2---- -----
D--2-2-2-5----------0-0-0-0-2-2 twice -4--4 play twice then to
A--0-0-0-3-2-2--------------0-0 then ----- falling riff
E----------0-0--0-0------------ -----
pm..
solo riff

7)
e--0--0--0-0--0-0-0-0--3-3-3-3--0-0-0-0
B--1--1--1-1--1-1-1-1--3-3-3-3--0-0-0-0
G--2--2--2-2--0-0-0-0--0-0-0-0--1-1-1-1
D-- 2--2--2-2--2-2-2-2--0-0-0-0--2-2-2-2
A--0--0--0-0--3-3-3-3--2-2-2-2--2-2-2-2
E----------------------3-3-3-3--0-0-0-0
accoustic closing
______________________________________________________________________

pre-solo (clean):
e-------------------------0-0-0-0-0-0-0-------------------------
B-------------------------0-1/3/531/3--8/108-7--5-3-----3----
G----4-5-7-4h5p4---4---------------------7/9-7-7------5-4---4--
D--7-------------5---5-7---------------------------------------5
A--------------------------------------------------- ------------
E---------------------------------------------------------------

e---------------------
B---------------------
G--------- -------5----
D--------------5---5-7
A------3-5/6/7--------
E--3-5----------------

e-------------------------7-----10------12-------14-------15----17
B--8-8p7---7-8---7-8-10-8---8-8---- 8/10----10/12----12/14----14---
G--------9-----9--------------------------------------------------
D---------------------------------------------------------- -------
A-----------------------------------------------------------------
E-------------------------------------------------------------- ---

Solo (distorted)
^ ^ ^
e-----------------------------------
B--7--7-----------------------------
G--7--7-5---------------------------
D---------7~~7-5------- -------------
A----------------7-5-3-5-3-------0-3
E--------------------------5-3-0----
pm..............

AH AH AH
e----------------------------------10--------8--------10---
B-------------------7---7-8-7-8-10----10--10---10--10----10
G-----5-7-5-7/ 9-7-9---9------------------------------------
D--/7------------------------------------------------------
A----------------------------------------------------------
E--------------------- -------------------------------------

^ ^ ^ ^ ^ ^
e---------------20-20--20-17-20p17----17---
B--20-20--20-17--------------------20----20
G------------------------------------------
D- -----------------------------------------
A------------------------------------------
E------------------------------------------

e--7- 9-10-9----9-----------------------------12------- (7 times)
B-----------10---8-7-5-7-5-3-1-3-1-0------13----13----
G------------------------------------2/14----------14-
D-----------------------------------------------------
A-----------------------------------------------------
E---------- -------------------------------------------

^ ^ ^ ^ ^
e-----------------------17-19-20-19-17-19-17----17---------
B---------------20--20-----------------------20----20-17---
G--19-19--19-17- -----------------------------------------19
D----------------------------------------------------------
A--------------------------------- -------------------------
E----------------------------------------------------------

e------------------------------------
B---------- --20---17h18p17~~~17h18p17
G--19--19-17-------------------------
D------------------------------------
A--------------------------------- ---
E------------------------------------

PhoenixДата: Вторник, 25.09.2007, 17:32
Огонёк
Сообщений: 47
Статус: Offline
Правильно!!! Ето Nothing Else Matters и ты проходишь в следуйщий тур!

З. Ы. Я перехожу на медиатор, и тебе советую - во 1-ых, играть легче и быстрее, во 2-ых, нету мозолей на пальцах...

З. З. Ы. ща попробую

И еще :
Укажи темп...
Знаком ли я с етой песней?..

Сообщение отредактировал Paladin - Воскресенье, 07.10.2007, 00:23
PaladinДата: Вторник, 25.09.2007, 22:58
Ведьмак
Сообщений: 372
Статус: Offline
Phoenix,

Ты темп тоже не указал...

Знаком.

PhoenixДата: Четверг, 27.09.2007, 20:30
Огонёк
Сообщений: 47
Статус: Offline
Єтошки у нас Непрощенные, The Unforgiven!

И это правильный ответ, и я прохожу в следуйщий тур, патамуша The Unforgiven я знаю напамять!

З. Ы. эт у тя неправильная версия, где ты ее пробил? вот корректный вариант :

THE INTRO PART:
---------------
4/4 timing
Gtr II (electric, clean tone) H ~~~~~
|---------------------------------|---------------------------------|
|---------------------------------|--------------------------- ------|
|---------------------------------|---------2---4-5^4-------5-4-2---|
|---------------------------------|------------------------- --------|
|---------------------------------|---------------------------------|
|---------------------------------|----------------------- ----------|
|Gtr I. (acous.)
| let ring Play 4 times
|---------------------------------|---------------------------------|
|.0-------0-----0-----0-----1----.|-0-------0-----0-----1----- 1-----|
|-----2-----2-----2-----2-----2---|-----2-----2-----2-----2-----2---|
|.------2-----2-----2-----2-----2.|-------2-----2-----2----- 2-----2-|
|-0-------------------------------|-0-------------------------------|
|---------------------------------|----------------------- ----------|

~~~~~~~~ H ~~~~~~~~~~~~~~~ ~~~~~
|---------------------------------|---------------------------------|
|---------------------------------|--------------------------- ------|
|(2)------2---4-4^5-------5-2-----|(2)------2---4-4^5-------5-4-2---|
|---------------------------------|------------------------- --------|
|---------------------------------|---------------------------------|
|---------------------------------|----------------------- ----------|
|
|
|---------------------------------|---------------------------------|
|-0-------0-----1-----1-----1-----|-0-------0----- 0-----1-----1-----|
|-----2-----2-----2-----2-----2---|-----2-----2-----2-----2-----2---|
|-------2-----2-----2-----2-----2-|-------2----- 2-----2-----2-----2-|
|-0-------------------------------|-0-------------------------------|
|---------------------------------|----------- ----------------------|

~~~~~~~~ H ~~~~~~~~~~~~~~~
|---------------------------------|---------------------------------|
|---------------------------------|----------------- ----------------|
|(2)------2---4-4^5-------5-2-----|(2)------2---4-4^5----4^5------5-|
|---------------------------------|--------------- ------------------|
|---------------------------------|---------------------------------|
|---------------------------------|------------- --------------------|
|
|
|---------------------------------|---------------------------------|
|-0-------0-----1-----1-----1-----|----- --------0---1-------1-----1-|
|-----2-----2-----2-----2-----2---|---------2-----------------------|
|-------2-----2-----2-----2-----2-|--- --2-----------------2-----2---|
|-0-------------------------------|-0-------------------3-----------|
|---------------------------------|- --------------------------------|

~~~~~~~~ sl H H H
|---------------------------------|---------------------------------|
|---------------------------------|-----------------------3^5----- 5-|
|-5-4---------4----------2-2^4---|-2-------2---4-4^5---------------|
|-----5-----------2---------------|------------------------------ ---|
|---------------------------------|---------------------------------|
|---------------------------------|---------------------------- -----|
|
| H
|---------------------------------|-------------------------0-----0-|
|---------------------------------|-------------0---1-----------1- --|
|-----0-------0-----------2---2^4-|-2-------2-----------------------|
|---0-------------2---2-2---------|-------2---------------2----- ----|
|---------------------------------|-----0---------------3-----------|
|-3-------3-----------------------|--------------------------- ------|

sl sl H ~~~~~~~~~~~~~~~~~~~~~~~~~~~~~~~~
|---------------------------------|---------------------------------|
|-5-3-----------------------------| ---------------------------------|
|-----4-------4--1------4-1-2^4-|-2-------------------------------|
|---------------------------------| ---------------------------------|
|---------------------------------|---------------------------------|
|-------------------------------- -|---------------------------------|
|
|
|---------------------------------|---------------------------------|
|-1-3-0-------3---------- ---------|---------0-----0-----0-----1-----|
|-----------------1---1---4-1-2^4-|-----2-----2-----2-----2-----2---|
|---------------------- -----------|-------2-----2-----2-----2-----2-|
|---------------------------------|-0-------------------------------|
|---------3---------- -------------|---------------------------------|

Сообщение отредактировал Paladin - Четверг, 27.09.2007, 21:33
PaladinДата: Суббота, 06.10.2007, 22:52
Ведьмак
Сообщений: 372
Статус: Offline
Тему почистил

Сообщение отредактировал Paladin - Воскресенье, 07.10.2007, 00:26
Форум "Южной Стены" » Таверна » Аргонианин с балалайкой » Проверка игры на Гитаре (" Угадай мелодию ")
Страница 1 из 11
Поиск:


Южная Стена © 2008 || Design by Acros © 2008 © 2017